ISO-10303-21;
HEADER;
/* Generated by software containing ST-Developer
 * from STEP Tools, Inc. (www.steptools.com) 
 */

FILE_DESCRIPTION(
/* description */ ('Alibre Inc.'),
/* implementation_level */ '2;1');

FILE_NAME(
/* name */ 'export0',
/* time_stamp */ '2016-01-22T21:21:26-05:00',
/* author */ (''),
/* organization */ (''),
/* preprocessor_version */ 'ST-DEVELOPER v14',
/* originating_system */ 'Alibre',
/* authorisation */ '');

FILE_SCHEMA (('CONFIG_CONTROL_DESIGN'));
ENDSEC;

DATA;
#10=MECHANICAL_CONTEXT('detailed design',#18,'mechanical');
#11=PRODUCT_RELATED_PRODUCT_CATEGORY('detail','',(#98));
#12=CC_DESIGN_SECURITY_CLASSIFICATION(#14,(#97));
#13=SECURITY_CLASSIFICATION_LEVEL('unclassified');
#14=SECURITY_CLASSIFICATION('name','Security for version',#13);
#15=SHAPE_DEFINITION_REPRESENTATION(#16,#462);
#16=PRODUCT_DEFINITION_SHAPE('','DefinitionDesc',#96);
#17=APPLICATION_PROTOCOL_DEFINITION('AP definition status',
'config_control_design',1994,#18);
#18=APPLICATION_CONTEXT(
'control the configuration of three dimensional design');
#19=DESIGN_CONTEXT('detailed design',#18,'design');
#20=PERSON_AND_ORGANIZATION_ROLE('creator');
#21=PERSON_AND_ORGANIZATION_ROLE('classification_officer');
#22=PERSON_AND_ORGANIZATION_ROLE('creator');
#23=PERSON_AND_ORGANIZATION_ROLE('design_supplier');
#24=PERSON_AND_ORGANIZATION_ROLE('design_owner');
#25=CC_DESIGN_PERSON_AND_ORGANIZATION_ASSIGNMENT(#57,#20,(#96));
#26=CC_DESIGN_PERSON_AND_ORGANIZATION_ASSIGNMENT(#60,#21,(#14));
#27=CC_DESIGN_PERSON_AND_ORGANIZATION_ASSIGNMENT(#61,#22,(#97));
#28=CC_DESIGN_PERSON_AND_ORGANIZATION_ASSIGNMENT(#62,#23,(#97));
#29=CC_DESIGN_PERSON_AND_ORGANIZATION_ASSIGNMENT(#63,#24,(#98));
#30=DATE_TIME_ROLE('creation_date');
#31=DATE_TIME_ROLE('classification_date');
#32=CC_DESIGN_DATE_AND_TIME_ASSIGNMENT(#86,#30,(#96));
#33=CC_DESIGN_DATE_AND_TIME_ASSIGNMENT(#89,#31,(#14));
#34=CC_DESIGN_APPROVAL(#93,(#96));
#35=CC_DESIGN_APPROVAL(#94,(#97));
#36=CC_DESIGN_APPROVAL(#95,(#14));
#37=APPROVAL_PERSON_ORGANIZATION(#56,#93,#64);
#38=APPROVAL_PERSON_ORGANIZATION(#58,#94,#65);
#39=APPROVAL_PERSON_ORGANIZATION(#59,#95,#66);
#40=ORGANIZATION('DEFINITION_APPROVEDBY_ORG_ID',
'DEFINITION_APPROVEDBY_ORG_NAME','DEFINITION_APPROVEDBY_ORG_DESCR');
#41=ORGANIZATION('DEF_CREATOR_ORG_ID','DEF_CREATOR_ORG_NAME',
'DEF_CREATOR_ORG_DESCR');
#42=ORGANIZATION('APPROVEDBY_ORG_ID','APPROVEDBY_ORG_NAME',
'APPROVEDBY_ORG_DESCR');
#43=ORGANIZATION('SECURITY_APPROVEDBY_ORG_ID',
'SECURITY_APPROVEDBY_ORG_NAME','SECURITY_APPROVEDBY_ORG_DESCR');
#44=ORGANIZATION('CLASSOFFICER_ORG_ID','CLASSOFFICER_ORG_NAME',
'CLASSOFFICER_ORG_DESCR');
#45=ORGANIZATION('CREATOR_ORG_ID','CREATOR_ORG_NAME','CREATOR_ORG_DESCR');
#46=ORGANIZATION('SUPPLIER_ORG_ID','SUPPLIER_ORG_NAME',
'SUPPLIER_ORG_DESCR');
#47=ORGANIZATION('OWNER_ORG_ID','OWNER_ORG_NAME','OWNER_ORG_DESCR');
#48=PERSON('DEFINITION_approverID','DEFINITION_APPROVEDBY_LASTNAME',
'DEFINITION_APPROVEDBY_FIRSTNAME',$,$,$);
#49=PERSON('DEF_createrID','DEF_CREATOR_LASTNAME',
'DEF_CREATOR_FIRSTNAME',$,$,$);
#50=PERSON('approverID','APPROVEDBY_LASTNAME','APPROVEDBY_FIRSTNAME',$,$,
$);
#51=PERSON('SECURITY_approverID','SECURITY_LASTNAME',
'SECURITY_APPROVEDBY_FIRSTNAME',$,$,$);
#52=PERSON('classifierID','CLASSOFFICER_LASTNAME',
'CLASSOFFICER_FIRSTNAME',$,$,$);
#53=PERSON('createrID','CREATOR_LASTNAME','CREATOR_FIRSTNAME',$,$,$);
#54=PERSON('supplierID','SUPPLIER_LASTNAME','SUPPLIER_FIRSTNAME',$,$,$);
#55=PERSON('ownerID','OWNER_LASTNAME','OWNER_FIRSTNAME',$,$,$);
#56=PERSON_AND_ORGANIZATION(#48,#40);
#57=PERSON_AND_ORGANIZATION(#49,#41);
#58=PERSON_AND_ORGANIZATION(#50,#42);
#59=PERSON_AND_ORGANIZATION(#51,#43);
#60=PERSON_AND_ORGANIZATION(#52,#44);
#61=PERSON_AND_ORGANIZATION(#53,#45);
#62=PERSON_AND_ORGANIZATION(#54,#46);
#63=PERSON_AND_ORGANIZATION(#55,#47);
#64=APPROVAL_ROLE('definition_approval');
#65=APPROVAL_ROLE('version_approval');
#66=APPROVAL_ROLE('security_approval');
#67=APPROVAL_DATE_TIME(#85,#93);
#68=APPROVAL_DATE_TIME(#87,#94);
#69=APPROVAL_DATE_TIME(#88,#95);
#70=COORDINATED_UNIVERSAL_TIME_OFFSET(4,0,.BEHIND.);
#71=COORDINATED_UNIVERSAL_TIME_OFFSET(4,0,.BEHIND.);
#72=COORDINATED_UNIVERSAL_TIME_OFFSET(4,0,.BEHIND.);
#73=COORDINATED_UNIVERSAL_TIME_OFFSET(4,0,.BEHIND.);
#74=COORDINATED_UNIVERSAL_TIME_OFFSET(4,0,.BEHIND.);
#75=LOCAL_TIME(15,58,11.,#70);
#76=LOCAL_TIME(15,58,11.,#71);
#77=LOCAL_TIME(15,58,11.,#72);
#78=LOCAL_TIME(15,58,11.,#73);
#79=LOCAL_TIME(15,58,11.,#74);
#80=CALENDAR_DATE(2015,27,8);
#81=CALENDAR_DATE(2015,27,8);
#82=CALENDAR_DATE(2015,27,8);
#83=CALENDAR_DATE(2015,27,8);
#84=CALENDAR_DATE(2015,27,8);
#85=DATE_AND_TIME(#80,#75);
#86=DATE_AND_TIME(#81,#76);
#87=DATE_AND_TIME(#82,#77);
#88=DATE_AND_TIME(#83,#78);
#89=DATE_AND_TIME(#84,#79);
#90=APPROVAL_STATUS('not_yet_approved');
#91=APPROVAL_STATUS('not_yet_approved');
#92=APPROVAL_STATUS('not_yet_approved');
#93=APPROVAL(#90,'defintion approval');
#94=APPROVAL(#91,'version approval');
#95=APPROVAL(#92,'security approval');
#96=PRODUCT_DEFINITION('DefinitionID','DefinitionDesc',#97,#19);
#97=PRODUCT_DEFINITION_FORMATION_WITH_SPECIFIED_SOURCE(
'PRODUCT_VERSION_ID','PRODUCT_VERSION_DESCR',#98,.NOT_KNOWN.);
#98=PRODUCT('ID_1','EMCO120P-NewEncoderBrakt','',(#10));
#99=(
LENGTH_UNIT()
NAMED_UNIT(*)
SI_UNIT(.CENTI.,.METRE.)
);
#100=(
NAMED_UNIT(*)
PLANE_ANGLE_UNIT()
SI_UNIT($,.RADIAN.)
);
#101=(
NAMED_UNIT(*)
SI_UNIT($,.STERADIAN.)
SOLID_ANGLE_UNIT()
);
#102=UNCERTAINTY_MEASURE_WITH_UNIT(LENGTH_MEASURE(1.E-006),#99,
'DISTANCE_ACCURACY_VALUE',
'Maximum model space distance between geometric entities at asserted co
nnectivities');
#103=(
GEOMETRIC_REPRESENTATION_CONTEXT(3)
GLOBAL_UNCERTAINTY_ASSIGNED_CONTEXT((#102))
GLOBAL_UNIT_ASSIGNED_CONTEXT((#101,#100,#99))
REPRESENTATION_CONTEXT('ID1','3D')
);
#104=VECTOR('',#359,1.);
#105=VECTOR('',#360,1.);
#106=VECTOR('',#361,1.);
#107=VECTOR('',#362,1.);
#108=VECTOR('',#364,1.);
#109=VECTOR('',#365,1.);
#110=VECTOR('',#366,1.);
#111=VECTOR('',#368,1.);
#112=VECTOR('',#369,1.);
#113=VECTOR('',#370,1.);
#114=VECTOR('',#372,1.);
#115=VECTOR('',#373,1.);
#116=LINE('',#413,#104);
#117=LINE('',#416,#105);
#118=LINE('',#418,#106);
#119=LINE('',#420,#107);
#120=LINE('',#422,#108);
#121=LINE('',#424,#109);
#122=LINE('',#426,#110);
#123=LINE('',#428,#111);
#124=LINE('',#430,#112);
#125=LINE('',#432,#113);
#126=LINE('',#434,#114);
#127=LINE('',#435,#115);
#128=PLANE('',#317);
#129=PLANE('',#322);
#130=PLANE('',#324);
#131=PLANE('',#325);
#132=PLANE('',#326);
#133=PLANE('',#327);
#134=PLANE('',#338);
#135=PLANE('',#339);
#136=VERTEX_POINT('',#398);
#137=VERTEX_POINT('',#400);
#138=VERTEX_POINT('',#403);
#139=VERTEX_POINT('',#406);
#140=VERTEX_POINT('',#408);
#141=VERTEX_POINT('',#411);
#142=VERTEX_POINT('',#414);
#143=VERTEX_POINT('',#415);
#144=VERTEX_POINT('',#417);
#145=VERTEX_POINT('',#419);
#146=VERTEX_POINT('',#423);
#147=VERTEX_POINT('',#425);
#148=VERTEX_POINT('',#429);
#149=VERTEX_POINT('',#431);
#150=VERTEX_POINT('',#438);
#151=VERTEX_POINT('',#440);
#152=VERTEX_POINT('',#443);
#153=VERTEX_POINT('',#446);
#154=VERTEX_POINT('',#449);
#155=VERTEX_POINT('',#451);
#156=CIRCLE('',#315,0.19939);
#157=CIRCLE('',#316,0.19939);
#158=CIRCLE('',#318,0.36195);
#159=CIRCLE('',#320,0.19939);
#160=CIRCLE('',#321,0.19939);
#161=CIRCLE('',#323,0.36195);
#162=CIRCLE('',#329,0.11303);
#163=CIRCLE('',#330,0.11303);
#164=CIRCLE('',#332,0.36195);
#165=CIRCLE('',#334,0.36195);
#166=CIRCLE('',#336,0.11303);
#167=CIRCLE('',#337,0.11303);
#168=EDGE_CURVE('',#136,#136,#156,.T.);
#169=EDGE_CURVE('',#137,#137,#157,.T.);
#170=EDGE_CURVE('',#138,#138,#158,.T.);
#171=EDGE_CURVE('',#139,#139,#159,.T.);
#172=EDGE_CURVE('',#140,#140,#160,.T.);
#173=EDGE_CURVE('',#141,#141,#161,.T.);
#174=EDGE_CURVE('',#142,#143,#116,.T.);
#175=EDGE_CURVE('',#144,#143,#117,.T.);
#176=EDGE_CURVE('',#145,#144,#118,.T.);
#177=EDGE_CURVE('',#145,#142,#119,.T.);
#178=EDGE_CURVE('',#143,#146,#120,.T.);
#179=EDGE_CURVE('',#147,#146,#121,.T.);
#180=EDGE_CURVE('',#144,#147,#122,.T.);
#181=EDGE_CURVE('',#146,#148,#123,.T.);
#182=EDGE_CURVE('',#149,#148,#124,.T.);
#183=EDGE_CURVE('',#147,#149,#125,.T.);
#184=EDGE_CURVE('',#148,#142,#126,.T.);
#185=EDGE_CURVE('',#149,#145,#127,.T.);
#186=EDGE_CURVE('',#150,#150,#162,.T.);
#187=EDGE_CURVE('',#151,#151,#163,.T.);
#188=EDGE_CURVE('',#152,#152,#164,.T.);
#189=EDGE_CURVE('',#153,#153,#165,.T.);
#190=EDGE_CURVE('',#154,#154,#166,.T.);
#191=EDGE_CURVE('',#155,#155,#167,.T.);
#192=ORIENTED_EDGE('',*,*,#168,.T.);
#193=ORIENTED_EDGE('',*,*,#169,.F.);
#194=ORIENTED_EDGE('',*,*,#168,.F.);
#195=ORIENTED_EDGE('',*,*,#170,.F.);
#196=ORIENTED_EDGE('',*,*,#171,.T.);
#197=ORIENTED_EDGE('',*,*,#172,.F.);
#198=ORIENTED_EDGE('',*,*,#171,.F.);
#199=ORIENTED_EDGE('',*,*,#173,.F.);
#200=ORIENTED_EDGE('',*,*,#174,.T.);
#201=ORIENTED_EDGE('',*,*,#175,.F.);
#202=ORIENTED_EDGE('',*,*,#176,.F.);
#203=ORIENTED_EDGE('',*,*,#177,.T.);
#204=ORIENTED_EDGE('',*,*,#178,.T.);
#205=ORIENTED_EDGE('',*,*,#179,.F.);
#206=ORIENTED_EDGE('',*,*,#180,.F.);
#207=ORIENTED_EDGE('',*,*,#175,.T.);
#208=ORIENTED_EDGE('',*,*,#181,.T.);
#209=ORIENTED_EDGE('',*,*,#182,.F.);
#210=ORIENTED_EDGE('',*,*,#183,.F.);
#211=ORIENTED_EDGE('',*,*,#179,.T.);
#212=ORIENTED_EDGE('',*,*,#184,.T.);
#213=ORIENTED_EDGE('',*,*,#177,.F.);
#214=ORIENTED_EDGE('',*,*,#185,.F.);
#215=ORIENTED_EDGE('',*,*,#182,.T.);
#216=ORIENTED_EDGE('',*,*,#186,.T.);
#217=ORIENTED_EDGE('',*,*,#187,.F.);
#218=ORIENTED_EDGE('',*,*,#170,.T.);
#219=ORIENTED_EDGE('',*,*,#188,.T.);
#220=ORIENTED_EDGE('',*,*,#173,.T.);
#221=ORIENTED_EDGE('',*,*,#189,.T.);
#222=ORIENTED_EDGE('',*,*,#190,.T.);
#223=ORIENTED_EDGE('',*,*,#191,.F.);
#224=ORIENTED_EDGE('',*,*,#190,.F.);
#225=ORIENTED_EDGE('',*,*,#189,.F.);
#226=ORIENTED_EDGE('',*,*,#188,.F.);
#227=ORIENTED_EDGE('',*,*,#186,.F.);
#228=ORIENTED_EDGE('',*,*,#174,.F.);
#229=ORIENTED_EDGE('',*,*,#184,.F.);
#230=ORIENTED_EDGE('',*,*,#181,.F.);
#231=ORIENTED_EDGE('',*,*,#178,.F.);
#232=ORIENTED_EDGE('',*,*,#169,.T.);
#233=ORIENTED_EDGE('',*,*,#172,.T.);
#234=ORIENTED_EDGE('',*,*,#191,.T.);
#235=ORIENTED_EDGE('',*,*,#187,.T.);
#236=ORIENTED_EDGE('',*,*,#185,.T.);
#237=ORIENTED_EDGE('',*,*,#176,.T.);
#238=ORIENTED_EDGE('',*,*,#180,.T.);
#239=ORIENTED_EDGE('',*,*,#183,.T.);
#240=EDGE_LOOP('',(#192));
#241=EDGE_LOOP('',(#193));
#242=EDGE_LOOP('',(#194));
#243=EDGE_LOOP('',(#195));
#244=EDGE_LOOP('',(#196));
#245=EDGE_LOOP('',(#197));
#246=EDGE_LOOP('',(#198));
#247=EDGE_LOOP('',(#199));
#248=EDGE_LOOP('',(#200,#201,#202,#203));
#249=EDGE_LOOP('',(#204,#205,#206,#207));
#250=EDGE_LOOP('',(#208,#209,#210,#211));
#251=EDGE_LOOP('',(#212,#213,#214,#215));
#252=EDGE_LOOP('',(#216));
#253=EDGE_LOOP('',(#217));
#254=EDGE_LOOP('',(#218));
#255=EDGE_LOOP('',(#219));
#256=EDGE_LOOP('',(#220));
#257=EDGE_LOOP('',(#221));
#258=EDGE_LOOP('',(#222));
#259=EDGE_LOOP('',(#223));
#260=EDGE_LOOP('',(#224));
#261=EDGE_LOOP('',(#225));
#262=EDGE_LOOP('',(#226));
#263=EDGE_LOOP('',(#227));
#264=EDGE_LOOP('',(#228,#229,#230,#231));
#265=EDGE_LOOP('',(#232));
#266=EDGE_LOOP('',(#233));
#267=EDGE_LOOP('',(#234));
#268=EDGE_LOOP('',(#235));
#269=EDGE_LOOP('',(#236,#237,#238,#239));
#270=FACE_BOUND('',#240,.T.);
#271=FACE_BOUND('',#241,.T.);
#272=FACE_BOUND('',#242,.T.);
#273=FACE_BOUND('',#243,.T.);
#274=FACE_BOUND('',#244,.T.);
#275=FACE_BOUND('',#245,.T.);
#276=FACE_BOUND('',#246,.T.);
#277=FACE_BOUND('',#247,.T.);
#278=FACE_BOUND('',#248,.T.);
#279=FACE_BOUND('',#249,.T.);
#280=FACE_BOUND('',#250,.T.);
#281=FACE_BOUND('',#251,.T.);
#282=FACE_BOUND('',#252,.T.);
#283=FACE_BOUND('',#253,.T.);
#284=FACE_BOUND('',#254,.T.);
#285=FACE_BOUND('',#255,.T.);
#286=FACE_BOUND('',#256,.T.);
#287=FACE_BOUND('',#257,.T.);
#288=FACE_BOUND('',#258,.T.);
#289=FACE_BOUND('',#259,.T.);
#290=FACE_BOUND('',#260,.T.);
#291=FACE_BOUND('',#261,.T.);
#292=FACE_BOUND('',#262,.T.);
#293=FACE_BOUND('',#263,.T.);
#294=FACE_BOUND('',#264,.T.);
#295=FACE_BOUND('',#265,.T.);
#296=FACE_BOUND('',#266,.T.);
#297=FACE_BOUND('',#267,.T.);
#298=FACE_BOUND('',#268,.T.);
#299=FACE_BOUND('',#269,.T.);
#300=ADVANCED_FACE('',(#270,#271),#454,.F.);
#301=ADVANCED_FACE('',(#272,#273),#128,.T.);
#302=ADVANCED_FACE('',(#274,#275),#455,.F.);
#303=ADVANCED_FACE('',(#276,#277),#129,.T.);
#304=ADVANCED_FACE('',(#278),#130,.T.);
#305=ADVANCED_FACE('',(#279),#131,.T.);
#306=ADVANCED_FACE('',(#280),#132,.T.);
#307=ADVANCED_FACE('',(#281),#133,.T.);
#308=ADVANCED_FACE('',(#282,#283),#456,.F.);
#309=ADVANCED_FACE('',(#284,#285),#457,.F.);
#310=ADVANCED_FACE('',(#286,#287),#458,.F.);
#311=ADVANCED_FACE('',(#288,#289),#459,.F.);
#312=ADVANCED_FACE('',(#290,#291,#292,#293,#294),#134,.T.);
#313=ADVANCED_FACE('',(#295,#296,#297,#298,#299),#135,.F.);
#314=AXIS2_PLACEMENT_3D('',#396,#340,#341);
#315=AXIS2_PLACEMENT_3D('',#397,#342,#343);
#316=AXIS2_PLACEMENT_3D('',#399,#344,#345);
#317=AXIS2_PLACEMENT_3D('',#401,#346,$);
#318=AXIS2_PLACEMENT_3D('',#402,#347,#348);
#319=AXIS2_PLACEMENT_3D('',#404,#349,#350);
#320=AXIS2_PLACEMENT_3D('',#405,#351,#352);
#321=AXIS2_PLACEMENT_3D('',#407,#353,#354);
#322=AXIS2_PLACEMENT_3D('',#409,#355,$);
#323=AXIS2_PLACEMENT_3D('',#410,#356,#357);
#324=AXIS2_PLACEMENT_3D('',#412,#358,$);
#325=AXIS2_PLACEMENT_3D('',#421,#363,$);
#326=AXIS2_PLACEMENT_3D('',#427,#367,$);
#327=AXIS2_PLACEMENT_3D('',#433,#371,$);
#328=AXIS2_PLACEMENT_3D('',#436,#374,#375);
#329=AXIS2_PLACEMENT_3D('',#437,#376,#377);
#330=AXIS2_PLACEMENT_3D('',#439,#378,#379);
#331=AXIS2_PLACEMENT_3D('',#441,#380,#381);
#332=AXIS2_PLACEMENT_3D('',#442,#382,#383);
#333=AXIS2_PLACEMENT_3D('',#444,#384,#385);
#334=AXIS2_PLACEMENT_3D('',#445,#386,#387);
#335=AXIS2_PLACEMENT_3D('',#447,#388,#389);
#336=AXIS2_PLACEMENT_3D('',#448,#390,#391);
#337=AXIS2_PLACEMENT_3D('',#450,#392,#393);
#338=AXIS2_PLACEMENT_3D('',#452,#394,$);
#339=AXIS2_PLACEMENT_3D('',#453,#395,$);
#340=DIRECTION('',(0.,0.,1.));
#341=DIRECTION('',(0.19939,0.,0.));
#342=DIRECTION('',(0.,0.,1.));
#343=DIRECTION('',(0.19939,0.,0.));
#344=DIRECTION('',(0.,0.,1.));
#345=DIRECTION('',(0.19939,0.,0.));
#346=DIRECTION('',(0.,0.,1.));
#347=DIRECTION('',(0.,0.,-1.));
#348=DIRECTION('',(0.36195,0.,0.));
#349=DIRECTION('',(0.,0.,1.));
#350=DIRECTION('',(0.19939,0.,0.));
#351=DIRECTION('',(0.,0.,1.));
#352=DIRECTION('',(0.19939,0.,0.));
#353=DIRECTION('',(0.,0.,1.));
#354=DIRECTION('',(0.19939,0.,0.));
#355=DIRECTION('',(0.,0.,1.));
#356=DIRECTION('',(0.,0.,-1.));
#357=DIRECTION('',(0.36195,0.,0.));
#358=DIRECTION('',(0.,1.,0.));
#359=DIRECTION('',(1.,0.,0.));
#360=DIRECTION('',(0.,0.,1.));
#361=DIRECTION('',(1.,0.,0.));
#362=DIRECTION('',(0.,0.,1.));
#363=DIRECTION('',(1.,0.,0.));
#364=DIRECTION('',(0.,-1.,0.));
#365=DIRECTION('',(0.,0.,1.));
#366=DIRECTION('',(0.,-1.,0.));
#367=DIRECTION('',(0.,-1.,0.));
#368=DIRECTION('',(-1.,0.,0.));
#369=DIRECTION('',(0.,0.,1.));
#370=DIRECTION('',(-1.,0.,0.));
#371=DIRECTION('',(-1.,-1.22464679914735E-016,0.));
#372=DIRECTION('',(-1.22464679914735E-016,1.,0.));
#373=DIRECTION('',(-1.22464679914735E-016,1.,0.));
#374=DIRECTION('',(0.,0.,1.));
#375=DIRECTION('',(0.11303,0.,0.));
#376=DIRECTION('',(0.,0.,1.));
#377=DIRECTION('',(0.11303,0.,0.));
#378=DIRECTION('',(0.,0.,1.));
#379=DIRECTION('',(0.11303,0.,0.));
#380=DIRECTION('',(0.,0.,1.));
#381=DIRECTION('',(0.36195,0.,0.));
#382=DIRECTION('',(0.,0.,1.));
#383=DIRECTION('',(0.36195,0.,0.));
#384=DIRECTION('',(0.,0.,1.));
#385=DIRECTION('',(0.36195,0.,0.));
#386=DIRECTION('',(0.,0.,1.));
#387=DIRECTION('',(0.36195,0.,0.));
#388=DIRECTION('',(0.,0.,1.));
#389=DIRECTION('',(0.11303,0.,0.));
#390=DIRECTION('',(0.,0.,1.));
#391=DIRECTION('',(0.11303,0.,0.));
#392=DIRECTION('',(0.,0.,1.));
#393=DIRECTION('',(0.11303,0.,0.));
#394=DIRECTION('',(0.,0.,1.));
#395=DIRECTION('',(0.,0.,1.));
#396=CARTESIAN_POINT('',(0.508,3.38074,0.));
#397=CARTESIAN_POINT('',(0.508,3.38074,0.7874));
#398=CARTESIAN_POINT('',(0.70739,3.38074,0.7874));
#399=CARTESIAN_POINT('',(0.508,3.38074,0.));
#400=CARTESIAN_POINT('',(0.70739,3.38074,0.));
#401=CARTESIAN_POINT('',(0.508,3.38074,0.7874));
#402=CARTESIAN_POINT('',(0.508,3.38074,0.7874));
#403=CARTESIAN_POINT('',(0.86995,3.38074,0.7874));
#404=CARTESIAN_POINT('',(0.508,0.381,0.));
#405=CARTESIAN_POINT('',(0.508,0.381,0.7874));
#406=CARTESIAN_POINT('',(0.70739,0.381,0.7874));
#407=CARTESIAN_POINT('',(0.508,0.381,0.));
#408=CARTESIAN_POINT('',(0.70739,0.381,0.));
#409=CARTESIAN_POINT('',(0.508,0.381,0.7874));
#410=CARTESIAN_POINT('',(0.508,0.381,0.7874));
#411=CARTESIAN_POINT('',(0.86995,0.381,0.7874));
#412=CARTESIAN_POINT('',(0.635,3.81,0.));
#413=CARTESIAN_POINT('',(-4.66590430475142E-016,3.81,1.27));
#414=CARTESIAN_POINT('',(-4.66590430475142E-016,3.81,1.27));
#415=CARTESIAN_POINT('',(1.27,3.81,1.27));
#416=CARTESIAN_POINT('',(1.27,3.81,0.));
#417=CARTESIAN_POINT('',(1.27,3.81,0.));
#418=CARTESIAN_POINT('',(-4.66590430475142E-016,3.81,0.));
#419=CARTESIAN_POINT('',(-4.66590430475142E-016,3.81,0.));
#420=CARTESIAN_POINT('',(-4.66590430475142E-016,3.81,0.));
#421=CARTESIAN_POINT('',(1.27,1.905,0.));
#422=CARTESIAN_POINT('',(1.27,3.81,1.27));
#423=CARTESIAN_POINT('',(1.27,0.,1.27));
#424=CARTESIAN_POINT('',(1.27,0.,0.));
#425=CARTESIAN_POINT('',(1.27,0.,0.));
#426=CARTESIAN_POINT('',(1.27,3.81,0.));
#427=CARTESIAN_POINT('',(0.635,0.,0.));
#428=CARTESIAN_POINT('',(1.27,0.,1.27));
#429=CARTESIAN_POINT('',(0.,0.,1.27));
#430=CARTESIAN_POINT('',(0.,0.,0.));
#431=CARTESIAN_POINT('',(0.,0.,0.));
#432=CARTESIAN_POINT('',(1.27,0.,0.));
#433=CARTESIAN_POINT('',(-2.33295215237571E-016,1.905,0.));
#434=CARTESIAN_POINT('',(0.,0.,1.27));
#435=CARTESIAN_POINT('',(0.,0.,0.));
#436=CARTESIAN_POINT('',(0.90678,0.83312,0.));
#437=CARTESIAN_POINT('',(0.90678,0.83312,1.27));
#438=CARTESIAN_POINT('',(1.01981,0.83312,1.27));
#439=CARTESIAN_POINT('',(0.90678,0.83312,0.));
#440=CARTESIAN_POINT('',(1.01981,0.83312,0.));
#441=CARTESIAN_POINT('',(0.508,3.38074,0.));
#442=CARTESIAN_POINT('',(0.508,3.38074,1.27));
#443=CARTESIAN_POINT('',(0.86995,3.38074,1.27));
#444=CARTESIAN_POINT('',(0.508,0.381,0.));
#445=CARTESIAN_POINT('',(0.508,0.381,1.27));
#446=CARTESIAN_POINT('',(0.86995,0.381,1.27));
#447=CARTESIAN_POINT('',(0.90678,2.92862,0.));
#448=CARTESIAN_POINT('',(0.90678,2.92862,1.27));
#449=CARTESIAN_POINT('',(1.01981,2.92862,1.27));
#450=CARTESIAN_POINT('',(0.90678,2.92862,0.));
#451=CARTESIAN_POINT('',(1.01981,2.92862,0.));
#452=CARTESIAN_POINT('',(0.635,1.905,1.27));
#453=CARTESIAN_POINT('',(0.635,1.905,0.));
#454=CYLINDRICAL_SURFACE('',#314,0.19939);
#455=CYLINDRICAL_SURFACE('',#319,0.19939);
#456=CYLINDRICAL_SURFACE('',#328,0.11303);
#457=CYLINDRICAL_SURFACE('',#331,0.36195);
#458=CYLINDRICAL_SURFACE('',#333,0.36195);
#459=CYLINDRICAL_SURFACE('',#335,0.11303);
#460=CLOSED_SHELL('',(#300,#301,#302,#303,#304,#305,#306,#307,#308,#309,
#310,#311,#312,#313));
#461=MANIFOLD_SOLID_BREP('',#460);
#462=ADVANCED_BREP_SHAPE_REPRESENTATION('',(#461),#103);
ENDSEC;
END-ISO-10303-21;
